[kid 666]'s diary

118889  Link to this entry 
Written about Sunday 2008-10-26
Written: (4041 days ago)

Intro (x1)
E|------------------------------------------------|
B|------------------------------------------------|
G|------------------------------------------------|
D|-7-7--7-7--10-10--10-10---5-5--5-5---5-5--5-5---|
A|-5-5--5-5---7--7---7--7---3-3--3-3---3-3--3-3---|
D|-5-5--5-5---7--7---7--7---3-3--3-3---3-3--3-3---|

Verse (x2)                        Gtr.2 plays this
E|-----------------------------------------------------|------------------|(x2)
B|-----------------------------------5-----------5-----|------------------|
G|----------7------------9-----------------------------|-/9--7--5--/12--7-|
D|-7--7--7-----10-10-10-----5--5--5-----5--5--5--------|------------------|
A|-5--5--5------7--7--7-----3--3--3-----3--3--3--------|------------------|
D|-5--5--5------7--7--7-----3--3--3-----3--3--3--------|------------------|

Pre-chorus PM (x2)
E|--------------------------------------|
B|--------------------------------------|
G|-5-5-5-5-5-5-5-5---5-5-5-5---5-5-5-5--|
D|-2-2-2-2-2-2-2-2---3-3-3-3---5-5-5-5--|
A|--------------------------------------|
D|--------------------------------------|

Chorus (x2)
E|----------------------------------------------------------------------|
B|----------------------------------------------------------------------|
G|----------------------------------------------------------------------|
D|-7-7---10-10---0---3-3---10-10---5---7-7---10-10---0---3-3-3-3---5-5--|
A|-7-7---10-10---0---3-3---10-10---5---7-7---10-10---0---3-3-3-3---5-5--|
D|-7-7---10-10---0---3-3---10-10---5---7-7---10-10---0---3-3-3-3---5-5--|

Bridge (x2)
E|-------------------------------------|-------------------------------------|(x2)
B|-------------------------------------|-------------------------------------|
G|-------------------------------------|-------------------------------------|
D|-0-0-0-0--2-2-2-2--3-3-3-3--5-5-5-5--|-7-7-7-7--0-0-0-0--3-3-3-3--5-5-5-5--|
A|-0-0-0-0--2-2-2-2--3-3-3-3--5-5-5-5--|-7-7-7-7--0-0-0-0--3-3-3-3--5-5-5-5--|
D|-0-0-0-0--2-2-2-2--3-3-3-3--5-5-5-5--|-7-7-7-7--0-0-0-0--3-3-3-3--5-5-5-5--|

Then this, while the chorus is playing (x2)
E|----------------------------------------|----------------------------------------|
B|----------------------------------------|----------------------------------------|
G|-9--9---12-12---11---5--5---12--12---7--|-9--9---12-12--11---5--5--5---x-x---7-7-|
D|-x--x----x--x----x---x--x----x---x---x--|-x--x----x--x---x---x--x--x---x-x---x-x-|
A|-7--7---10-10----9---3--3---10--10---5--|-7--7---10-10---9---3--3--3---x-x---5-5-|
D|----------------------------------------|----------------------------------------|

Ending
E|---------------------|
B|---------------------|
G|-/9--7--5--/12--9----|
D|---------------------|
A|---------------------|
D|---------------------|

118888  Link to this entry 
Written about Sunday 2008-10-26
Written: (4041 days ago)

|------0-------0------0--------0------0-------0--------0--------0--------------0-|x1
B|--------0--------------0---------------0-------0--------0--------0-------0------|
G|---12------12-----12-------12-----12-------12------12-------12--------12---12---|
D|-14------13-----12-------11-----14-------13------12-------11-------10-----------|
A|--------------------------------------------------------------------------------|
D|--------------------------------------------------------------------------------|

Chorus Gtr I, Gtr II
E|--------------------------------------------------------|
B|--------------------------------------------------------|
G|---------4-5-4-2----------------------4-5-4-2----2------|
D|-2--2----x-x-x-x----5----0----2--2----x-x-x-x----2----0-|
A|-2--2----2-3-2-0----5----0----2--2----2-3-2-0----0----0-|
D|-2--2---------------5----0----2--2--------------------0-|

E|--------------------------------------------------------------|x1
B|--------------------------------------------------------------|
G|---------4-5-4-2------------------------------------11-12-11--|
D|-2--2----x-x-x-x----5----0----12-12-12-12----0--0----x--x--x--|
A|-2--2----2-3-2-0----5----0----10-10-10-10----0--0----9-10--9--|
D|-2--2---------------5----0----10-10-10-10----0--0-------------|

Repeat Verse and Chorus

Bridge Gtr I, Gtr II
E|-----------------------------------------------|x2
B|-----------------------------------------------|
G|11-12-11-12-11-12-11-12-11--5-5-5-5--7-7-7-7---|
D|-9--9--9--9--9--9--9--9--9--5-5-5-5--7-7-7-7---|
A|----------------------------3-3-3-3--5-5-5-5---|
D|-----------------------------------------------|

Outro
E|-------------------------------|x1
B|-------------------------------|
G|11--12--11--12--11--12--11--12-|
D|-9---9---9---9---9---9---9---9-|
A|-------------------------------|
D|-------------------------------|

118887  Link to this entry 
Written about Sunday 2008-10-26
Written: (4041 days ago)

}----------------------------------------------------------------------|
}----------------------------------------------------------------------|
}----------------------------------------------------------------------|
}—2222-----------5555--------------------------------------------------|
}---0000-33333--3333---5555--------------------------------------------|
}----------11111-----------3333----------------------------------------|

Chorus

}-------------------------------------------------------------------------|
}-------------------------------------------------------------------------|
}-------------------------------------------------------------------------|
}---22-------5555---------------------------------------------------------|
}---00--33--3333--5555----3333--5555--------------------------------------|
}--------11---------3333----1111--3333------------------------------------|


}----------------------------------------------------------------------|
}----------------------------------------------------------------------|
}----------------------------------------------------------------------|
}—2222----------5555---------------------------------------------------|
}--0000-33333--3333---5555---------------------------------------------|
}---------11111----------3333------------------------------------------|

118886  Link to this entry 
Written about Sunday 2008-10-26
Written: (4041 days ago)

-----------|---------------------------------|--------------------------------
-----------|---------------------------------|--------------------------------
-----------|---------------------------------|--------------------------------
-----------|---------------------------------|--------------------------------
-----------|---------------------------------|--------------------------------
-0-0-0-0-0-|-0-0-0-0-0-0-0-0-0-0-0-0-0-0-0-0-|-0-0-0-0-0-0-0-0-0-0-0-0-0-0-0-0



                  Riff B

---------------------------------|-------------------------------|------------
---------------------------------|-------------------------------|------------
---------------------------------|-----------------------------7-|------------
---------------------------------|---5---5-7-5-7-5-8-5-7-5-8h9---|------------
---------------------------------|-7---7-------------------------|------------
-0-0-0-0-0-0-0-0-0-0-0-0-0-0-0-0-|-------------------------------|------------

                  -----Palm Mute----------------





Repeat Riff B two more times, then on the fourth, play Riff B.2



Riff B.2

----------------------------------------------------------------------------
----------------------------------------------------------------------------
----------------------------------------------------------------------------
---5---5-7-5-7-5-8-7-5------------------------------------------------------
-7---7-----------------7--(7)\----------------------------------------------
----------------------------------------------------------------------------

------P.M-------





Riff C

--------------------------------|
--------------------------------|
--------------------------------|
---------2---2---------------0--|
---------0---0---1---0---1h2----|
-0-3-0-3---3---3---3---3--------|

|------------P.M--------|



Repeat Riff C two more times, then play Riff C.2 on the fourth time



Riff C.2


------------------------------------
------------------------------------
------------------------------------
---------2---2----------------------
---------0---0---1-0----------------
-0-3-0-3---3---3-----3-0------------

|-------P.M-----|




Now play Riff C three more times and finish with Riff C.2 on the fourth time





Riff D

-----------------------------
-----------------------------
-----------------------------
--------------------------0--
--------------------0h1h2----
-0-0--0--0--0--0--0----------

|----P.M-----------|



Play Riff D two more times and finish with Riff D.2



Riff D.2

------------------------------
------------------------------
------------------------------
--------------------0-------0-
--------------0h1h2---0h1h2---
-0-0--0--0--0-----------------

|-----P.M.---|








Riff E


----------------------------|------------------------------------------------
----------------------------|------------------------------------------------
----------------------------|------------------------------------------------
--------------------------0-|------------------------------------------------
--------------------0h1h2---|--------------0h1p0-----0h1p0-------------------
-0-0--0--0--0--0--0---------|-0-0--0--0--0-------3-3-------3-1---------------

|----P.M-----------|     |----P.M----|



Now repeat Riff E once more and go into Main Verses





Riff F (Main Verses)


--------------------------|---------------------------------------------------
--------------------------|---------------------------------------------------
--------------------------|---------------------------------------------------
--------------------------|--------------------------0------------------------
--------------------------|--------------------0h1h2--------------------------
-0-0--0--0--0--0--0-0-0-0-|-0-0--0--0--0--0--0--------------------------------

|---------------P.M---------------------------|



--------------------------|---------------------------------------------------
--------------------------|---------------------------------------------------
--------------------------|---------------------------------------------------
--------------------------|---------------------------------------------------
--------------------------|--------------0h1p0-----0h1p0----------------------
-0-0--0--0--0--0--0-0-0-0-|-0-0--0--0--0-------3-3-------3-1------------------

|----------------P.M.-------------------|



Now Repeat Riff F once more and continue into Riff G



Riff G

-----------------------------|------------------------------------------------
-----------------------------|------------------------------------------------
-----------------------------|------------------------------------------------
-5-5-5-5-5-5-5-5-5-5-5--6--6-|-5-5-5-5-5-5-5-5-5-5-5--8--7--6-----------------
-5-5-5-5-5-5-5-5-5-5-5--6--6-|-5-5-5-5-5-5-5-5-5-5-5--8--7--6-----------------
-3-3-3-3-3-3-3-3-3-5-3--4--4-|-3-3-3-3-3-3-3-3-3-3-3--6--5--4-----------------

118411  Link to this entry 
Written about Wednesday 2008-10-01
Written: (4065 days ago)

I don't want another heartbreak
I don't need another turn to cry
I don't want to learn the hard way
Baby Hello, oh no, goodbye
But you got me like a rocket
Shooting straight across the sky...
It's the way you love me
It's a feeling like this--
It's centrifugal motion
It's perpetual bliss.
It's that pivotal moment
It's Impossible
This Kiss, This Kiss
(Unstoppable)
This Kiss, This Kiss
Cinderella said to Snow White
How does love get so off course?
All I wanted was a white knight
With a good heart, soft touch, fast horse.
Ride me off into the sunset
Baby, I'm forever yours
It's the way you love me
It's a feeling like this--
It's centrifugal motion
It's perpetual bliss.
It's that pivotal moment
It's Unthinkable
This Kiss, This Kiss
(Unsinkable)
This Kiss This Kiss
You can kiss me in the moonlight
On the rooftop under the sky
You can kiss me with the windows open
While the rain comes pouring inside
Kiss me in sweet slow motion
Let's let every thing slide
You got me floating, You got me flying
It's the way you love me
It's a feeling like this--
It's centrifugal motion
It's perpetual bliss.
It's that pivotal moment
It's Subliminal
This Kiss, This Kiss
(It's Criminal)
This Kiss, This Kiss

118287  Link to this entry 
Written about Tuesday 2008-09-23
Written: (4073 days ago)

Daniel Calton
                    1127 34th Street Bellingham, WA 98229
(360)-224-2409

OBJECTIVE:
     To obtain an entry-level position in the auto mechanic industry.
EDUCATION:
                                 Bellingham High School 2020 Cornwall Avenue, Bellingham, WA 98225 (360)-676-6575 expected graduation date: June 2010.
HONORS:
Student of the month- Fall 2007.
PERSONAL:
              Work well with others, reliable, excellent driving record, responsible, dependable.
MECHANICAL EXPERIENCE:
                    Engine repair and mounted, tire changing, Modifying cars, Installing car sound systems.
VOLUNTEER:
             Helping friends and family with their cars, putting on different tires.

117108  Link to this entry 
Written about Sunday 2008-07-27
Written: (4132 days ago)

thinking about life and what it's worth
and i don't know
tell then i met this girl and now she is my world
she makes me happy so much and loving it

115646  Link to this entry 
Written about Friday 2008-06-13
Written: (4175 days ago)

We are who we are
So why do you judge us?
What did we do to be looked at?
To be laughed at?
To be made fun of or abused by people we have known for years
We all have different styles but why does every one make fun of Goths or think EMO is just plan dumb, I’m sick of it
Some people ask us “ what is the point of looking like the way we do? Why do you think pain is beautiful?”
The way we dress is just to be who we are I know it just seems that were just trying to get some attention were not.
We do what we feel is right we feel so open but yet you shut us down. Now Pain is what we have what we control and it’s the love of life, pain it’s not enough we love the pain but we hate the pain you give us. Hurting what we love and who we are
We try so hard to be normal but were not were different we have to get looked at or judged, unless we fit in with this so called high school life This life is hell why? Why do you have to keep looking at us so what were different you know what your different to us. in our eyes we are normal
My name is Sergio Quiroga and I am proud to be a Gothic EMO



115643  Link to this entry 
Written about Friday 2008-06-13
Written: (4175 days ago)

Going off


Mind is racing running out of time
There is something in every line 
Some one gota get pissed
Get your hands up start swinging
Ant know one going to get this
This place is about to go off
With words said
Starting the blood shad Get ready 
Time to get everything off your chest
Start the mess don’t get hurt
You’re about to burst
Get ready for the next Verse
It’s about to go off y’all it’s time
Ready or not here it goes
BANG there’s the first shot
Strait to the doom


115341  Link to this entry 
Written about Wednesday 2008-06-04
Written: (4184 days ago)

ok i'm sorry for this but i have to post this it is the most fucked up song me and my friend wrote

The Lord’s Work


I’m doin the Lord’s work doo da doo *CHOP*
Oh I’m doin the Lord’s work doo da doo *CHOP*
Oh I’m on to number seven and I’ll surely go to heaven
Oh I’m doin the Lord’s work doo da doo *CHOP*

I’m washin away the filth doo da doo *CHOP*
Oh I’m washin away the filth doo da doo *CHOP*
I will flush em down the toilet, they deserve it and they know it
Oh I’m washin away the filth doo da doo *CHOP*

I’m killin all the beaners doo da doo *CHOP*
Oh I’m killin all the beaners doo da doo *CHOP*]
I will tell em adios as the bloody story goes
Oh I’m killin all the beaners doo da doo *CHOP*

I’m slicing all the Ingins doo da doo *CHOP*
Oh I’m slicing all the Ingins doo da doo *CHOP*
Cuz they’re crazy yes indeed, and they’re smoking too much weed
So I’m slicing all the Ingins doo da doo *CHOP*

I’m slashin all the negros doo da doo *CHOP*
Oh I’m slashin all the negros doo da doo *CHOP*
Dark meat’s tasty and it’s wetter and I’ve always liked it better
Oh I’m slashin all the negros doo da doo *CHOP*

I’m hackin all the Jews doo da doo *CHOP*
Oh I’m hackin all the Jews doo da doo *CHOP*
They’re annoying and there’s many and they’re stealing al my money
So I’m hackin all the Jews doo da doo *CHOP*

I’m wackin all the Asians doo da doo *CHOP*
Oh I’m wackin all the Asians doo da doo *CHOP*
They make too many babies and the Samurai have rabies
Oh I’m wackin all the Asians doo da doo *CHOP*

I’m blowin up the Muslims doo da doo *BANG!*
Oh I’m blowin up the Muslims doo da doo *BANG!*
I would chop them like the rest but they seem to like bombs best,
So I’m blowin up the Muslims doo da doo *BANG!*

Now I’ve finished the Lord’s work doo da doo *grin*
Oh I’ve finished the Lord’s work doo da doo *grin*
Now the world is kinda white, but at least I’ll sleep at night
So I must’ve done god’s work doo da doo *grin*

If your happy and you know it clap your hand’s

115196  Link to this entry 
Written about Friday 2008-05-30
Written: (4189 days ago)

Pissed off, the shattering of glass, choices made and emotions clash. These are the thing that make a young child’s heart break.
“I’m telling you he needs a better role model he has no one to teach him what he should do!”
“So your saying how he turned out is my fault, I don’t understand aren’t you the one who said that you wanted to show him the way he is supposed to be!?”
Word ring like a bell in the ears of the sane, my heart wishes beyond all else to be deaf just to escape the words that cut like a knife. In my room words of hate are exchanged from down the hall.
“this isn’t my fault he has always looked up to you like a father even after finding out that your not, but you have never given him the time of day that’s why he is acting out like this!”
“He’s known all along that I wasn’t his real dad, ever since the age of twelve when he began to have a concept of that this world is really like. Besides he is who he is and I’m fine with that he’s doing things his own way and that make me proud. Can’t you remember when you were that age I bet you wanted to prove to your parents that you will do things your own way didn’t you?”
“No ever since I was young my mother knew what I should be and she made it happen and I never argued with it. It’s good for a child to have a person in their life to tell them what they should do!”
“That bull shit and you know it, the way that kid think today is that they don’t want to have some one to control every aspect of their life. They want a choice and to be able make that choice on their own accord and he has made his choice why can’t you be supportive of that!?”
“no I can’t not when he is make the wrong choice. what about his scholarship? Acting like that there is no way he’s going to get to any collage I mean..”
“maybe he doesn’t want to go to college did you ever think of that.”
“of course he wants to go to college I’ve set all this up for him I’ve gotten him scholarships I’ve helped him through school and because I want him to be a doctor that’s what he wants!”
“are you delusional just because you want him to go doesn’t mean that he wants to go

114923  Link to this entry 
Written about Wednesday 2008-05-21
Written: (4199 days ago)



  thinking about life and wondering why, why do people even try it's to heard to keep going when you have nothing
people say they love you but in realate they don't give a shit about you so why try so heard to get there love when it might just not work for you
me i do love some one and there on here and i love her so much and she knows that and hopeing that she loves me to

 The logged in version 

News about Elfpack
Help - How does Elfpack work?

Get $10 worth of Bitcoin/Ethereum for free (you have to buy cryptos for $100 to get it) and support Elfpack!