[kid 666]'s diary

121176  Link to this entry 
Written about Saturday 2009-02-14
Written: (3837 days ago)
Next in thread: 121182

the felling of hope is gone..
the sparkly light in my eyes burned out
the only thing's I feel are Pain, hurt burning,
I'm gone there's nothing, nothing for me to grab,
I'm trying to hold on, to anything something to hold me...
but when I reach out know one's there..
I just keep falling.
the funny thing is I'm getting use to falling.. every time I get something it lets me go...
I don't think I'm going to fight for it this time I'm not.. I'm not going to be
the one getting hurt,
Cause I think this time I'm going to stay happy
only time can tell me what's going to happen

120553  Link to this entry 
Written about Wednesday 2009-01-21
Written: (3860 days ago)

If I was king for ah day
All my worries would go away
Shinning like my dreams
If I was king for ah day
So many things would fly away
So now the dreams are gone
And all hope is shone to be here
And not alone
If I was king for ah day
All the glory would blaze just to so
I was King for a day
I’ve been prying all Night an Day
Just to Be KING FOR AH DAY
If I was king for ah day all my worries would just go away
My dreams shinning like the midnight Sky
Holding the Glory up High
Now I can touch the Sky
As The King for ah Day

[______00000000000000_______0000000000000
_____000000000000000000__000000000000000000
___000000000000000000000000000000_______00000
__0000000000000000000000000000000_________0000
_0000000000000000000000000000000000________0000
000000000000000000000000000000000000000_____0000
0000000000000000000000000000000000000000___00000
00000000000000000000000000000000000000000_000000
000000000000000000000000000000000000000000000000
000000000000000000000000000000000000000000000000
_0000000000000000000000000000000000000000000000
__00000000000000000000000000000000000000000000
____0000000000000000000000000000000000000000
______000000000000000000000000000000000000
_________000000000000000000000000000000
____________000000000000000000000000
______________00000000000000000000
_________________000000000000000
___________________0000000000
_____________________000000
______________________0000
_______________________00
]





120171  Link to this entry 
Written about Friday 2009-01-02
Written: (3880 days ago)

<object width="425" height="344"><param name="movie" value="http://www.youtube.com/v/HjXTrNxTeSs&hl=en&fs=1"></param><param name="allowFullScreen" value="true"></param><param name="allowscriptaccess" value="always"></param><embed src="http://www.youtube.com/v/HjXTrNxTeSs&hl=en&fs=1" type="application/x-shockwave-flash" allowscriptaccess="always" allowfullscreen="true" width="425" height="344"></embed></object>

118999  Link to this entry 
Written about Sunday 2008-11-02
Written: (3941 days ago)

so there is something on my Mind and i don't know what to do
about it like it's really Bugging me and i don't know what to do about it?
an i don't want to talk about it but i do at the same time so i'm not so sure on if i should but i don't know who and i'm needing this to Help me and i'm just so lost in my own mind and it's killing me
for the last 2 1/2 day's things have been killing me at my house and i'm getting sick of it really i am like it's tarring me up on the insaid and i don't know how i should go about this...
i feel like a Super EMO and i'm not sure i'm just not
there is this thing that is going on and i just don't know my Cusen Died on 10/30/08 and i miss him, i'm feeling like i have nothing i mean i don't have much to say but it's just steel like i don't cry or have any sadness about it like i do but i don't at the same time but you know it's just
something that's going to happen

and there are thing's that i don't know who to talk to about it and i need some help i really do it's killing me and i don't know how much more i can take i really don't.....

118891  Link to this entry 
Written about Sunday 2008-10-26
Written: (3948 days ago)

e|--------------------------------------------------------------------------|
B|-----10----11----10----8----8/10------------------------------------------|
G|--------------------------------------------------------------------------|
D|--12----12----12----12---10-------x2--------------------------------------|
A|--------------------------------------------------------------------------|
E|--------------------------------------------------------------------------|

e|--------------------------------------------------------------------------|
B|-----6-----6-----6-----6-----6------8------8-----8-----8-----8/10---------|
G|--------------------------------------------------------------------------|
D|--8-----8-----8-----8-----8-----10-----10-----10----10----10--------------|
A|--------------------------------------------------------------------------|
E|--------------------------------------------------------------------------|

Intro-Guitar 2
e|--------------------------------------------------------------------------|
B|--------------------------------------------------------------------------|
G|-----------(just follow the rhythm)---------------------------------------|
D|--------------------------------------------------------------------------|
A|--------------------------------------------------------------------------|
E|-0-0-0-0-0-0-3-5----8-8-8-8-8-----10-10-10-10-----------------------------|

Intro-Guitar 2 (comes in when solo starts)
e|--------------------------------------------------------------------------|
B|--------------------------------------------------------------------------|
G|--------------------------------------------------------------------------|
D|--------------------------------------------------------------------------|
A|-0----7----8---10---------------------------------------------------------|
E|-0----7----8---10---------------------------------------------------------|

Chorus
e|--------------------------------------------------------------------------|
B|--------------------------------------------------------------------------|
G|--------------------------------------------------------------------------|
D|--------------------------------------------------------------------------|
A|-0-00-0-00--0-00-0-00--0-00-0-00--033335555-------------------------------|
E|-0-00-0-00--0-00-0-00--0-00-0-00--033335555-------------------------------|

Verse-Guitar 1
e|--------------------------------------------------------------------------|
B|-----10----11----10----8----8/10------------------------------------------|
G|--------------------------------------------------------------------------|
D|--12----12----12----12---10-------x2--------------------------------------|
A|--------------------------------------------------------------------------|
E|--------------------------------------------------------------------------|

e|--------------------------------------------------------------------------|
B|-----6-----6-----6-----6-----6------8------8-----8-----8-----8/10---------|
G|--------------------------------------------------------------------------|
D|--8-----8-----8-----8-----8-----10-----10-----10----10----10--------------|
A|--------------------------------------------------------------------------|
E|--------------------------------------------------------------------------|

Verse-Guitar 2
e|--------------------------------------------------------------------------|
B|--------------------------------------------------------------------------|
G|-----------(just follow the rhythm)---------------------------------------|
D|--------------------------------------------------------------------------|
A|--------------------------------------------------------------------------|
E|-0-0-0-0-0-0-3-5----8-8-8-8-8-----10-10-10-10-----------------------------|

Bridge
e|--------------------------------------------------------------------------|
B|--------------------------------------------------------------------------|
G|--------------------------------------------------------------------------|
D|--------------------------------------------------------------------------|
A|-0----7----8---10---------------------------------------------------------|
E|-0----7----8---10---------------------------------------------------------|

118890  Link to this entry 
Written about Sunday 2008-10-26
Written: (3948 days ago)

|---------------------------------------------------------------------------|
|---------------------------------------------------------------------------|
|---------------------------------------------------------------------------|
|-0-0--0-0-0--0-0-0--0-5-3-2-3-3-2-2----------------------------------------|
|-0-0--0-0-0--0-0-0--0-5-3-2-3-3-2-2----------------------------------------|
|-0-0--0-0-0--0-0-0--0-5-3-2-3-3-2-2----------------------------------------|

Verse:
( 2x )
|---------------------------------------------------------------------------|
|---------------------------------------------------------------------------|
|--------------------------------------3-3----------------------------------|
|-0-0--0-0-0--0-0-0--0-5-3-2-3-3-2-2---3-3--5-5-----------------------------|
|-0-0--0-0-0--0-0-0--0-5-3-2-3-3-2-2---1-1--5-5-----------------------------|
|-0-0--0-0-0--0-0-0--0-5-3-2-3-3-2-2--------5-5-----------------------------|

( 2x )
|---------------------------------------------------------------------------|
|---------------------------------------------------------------------------|
|---------------------------------------------------------------------------|
|-0-0--0-0-0--0-0-0--0-5-3-2-3-3-2-2----------------------------------------|
|-0-0--0-0-0--0-0-0--0-5-3-2-3-3-2-2----------------------------------------|
|-0-0--0-0-0--0-0-0--0-5-3-2-3-3-2-2----------------------------------------|

|---------------------------------------------------------------------------|
|---------------------------------------------------------------------------|
|--------------------------------------3-3----------------------------------|
|-0-0--0-0-0--0-0-0--0-5-3-2-3-3-2-2---3-3--5-5-----------------------------|
|-0-0--0-0-0--0-0-0--0-5-3-2-3-3-2-2---1-1--5-5-----------------------------|
|-0-0--0-0-0--0-0-0--0-5-3-2-3-3-2-2--------5-5-----------------------------|

chorus ( 2x ):

|---------------------------------------------------------------------------|
|---------------------------------------------------------------------------|
|---------------------------3-3---------------------------------------------|
|-0-3-2-2-0-0--0-3-2-2-0-0--3-3--5-5----------------------------------------|
|-0-3-2-2-0-0--0-3-2-2-0-0--1-1--5-5----------------------------------------|
|-0-3-2-2-0-0--0-3-2-2-0-0-------5-5----------------------------------------|

Intro ( 2x )

Verse

Chorus

Bridge:
( 4x )
|---------------------------------------------------------------------------|
|---------------------------------------------------------------------------|
|-------------/7------------------------------------------------------------|
|-0-0--0-0-0--/x------------------------------------------------------------|
|-0-0--0-0-0--/5------------------------------------------------------------|
|-0-0--0-0-0----------------------------------------------------------------|


In The End, we're all just chalk lines...:

Clean:
( 2x )
|---------------------------------------------------------------------------|
|-------------------6-------------------------8-6---------------------------|
|-7-7-5-7-5-7-5-7-5---7p5h7-7-7-5-7-5-7-5-7-5-----7-5-----------------------|
|---------------------------------------------------------------------------|
|---------------------------------------------------------------------------|
|---------------------------------------------------------------------------|

Distorted:

|---------------------------------------------------------------------------|
|---------------------------------------------------------------------------|
|----------------------3-3-3------------------------------------------------|
|-0-0-0-----0-0-0------3-3-3-----5-5-5--------------------------------------|
|-0-0-0-----0-0-0------1-1-1-----5-5-5--------------------------------------|
|-0-0-0-----0-0-0----------------5-5-5--------------------------------------|


I'd rather...:

Lead ( 2x ):

|---------------------------------------------------------------------------|
|---------------------------------------------------------------------------|
|----------------------------------5-5----------------5-7-7-5---------------|
|------5-7-5-8-7-5-7-5---------7-8-----8-7-8-7-5--------------8-7-5---------|
|-5-5------------------8--5-5---------------------8-8---------------8-------|
|---------------------------------------------------------------------------|

|---------------------------------------------------------------------------|
|---------------------------------------------------------------------------|
|---------------------------------------------------------------------------|
|-5-5-7-5-5-8-7-5-----------------------------------------------------------|
|-----------------3-5-------------------------------------------------------|
|---------------------------------------------------------------------------|

Rhythm ( 2x ):

|---------------------------------------------------------------------------|
|---------------------------------------------------------------------------|
|----------------------3-3-3------------------------------------------------|
|-0-0-0-----0-0-0------3-3-3-----5-5-5--3-3-3-------------------------------|
|-0-0-0-----0-0-0------1-1-1-----5-5-5--3-3-3-------------------------------|
|-0-0-0-----0-0-0----------------5-5-5--3-3-3-------------------------------|

Final Chorus:

Rhythm:

|---------------------------------------------------------------------------|
|---------------------------------------------------------------------------|
|-3-3-----------------------------------------------------------------------|
|-3-3--5-5------------------------------------------------------------------|
|-1-1--5-5------------------------------------------------------------------|
|------5-5------------------------------------------------------------------|

( 3x )
|---------------------------------------------------------------------------|
|---------------------------------------------------------------------------|
|---------------------------3-3---------------------------------------------|
|-0-3-2-2-0-0--0-3-2-2-0-0--3-3--5-5----------------------------------------|
|-0-3-2-2-0-0--0-3-2-2-0-0--1-1--5-5----------------------------------------|
|-0-3-2-2-0-0--0-3-2-2-0-0-------5-5----------------------------------------|

Lead:
( 4x )
|-----13h15-----------------------------------------------------------------|
|-15------------------------------------------------------------------------|
|---------------------------------------------------------------------------|
|---------------------------------------------------------------------------|
|---------------------------------------------------------------------------|
|---------------------------------------------------------------------------|

Outro:
( 3x )
|---------------------------------------------------------------------------|
|---------------------------------------------------------------------------|
|-------------/7------------------------------------------------------------|
|-0-0--0-0-0--/x------------------------------------------------------------|
|-0-0--0-0-0--/5------------------------------------------------------------|
|-0-0--0-0-0----------------------------------------------------------------|

|---------------------------------------------------------------------------|
|---------------------------------------------------------------------------|
|---------------------------------------------------------------------------|
|-0-0--0-0-0----------------------------------------------------------------|
|-0-0--0-0-0----------------------------------------------------------------|
|-0-0--0-0-0----------------------------------------------------------------|


118889  Link to this entry 
Written about Sunday 2008-10-26
Written: (3948 days ago)

Intro (x1)
E|------------------------------------------------|
B|------------------------------------------------|
G|------------------------------------------------|
D|-7-7--7-7--10-10--10-10---5-5--5-5---5-5--5-5---|
A|-5-5--5-5---7--7---7--7---3-3--3-3---3-3--3-3---|
D|-5-5--5-5---7--7---7--7---3-3--3-3---3-3--3-3---|

Verse (x2)                        Gtr.2 plays this
E|-----------------------------------------------------|------------------|(x2)
B|-----------------------------------5-----------5-----|------------------|
G|----------7------------9-----------------------------|-/9--7--5--/12--7-|
D|-7--7--7-----10-10-10-----5--5--5-----5--5--5--------|------------------|
A|-5--5--5------7--7--7-----3--3--3-----3--3--3--------|------------------|
D|-5--5--5------7--7--7-----3--3--3-----3--3--3--------|------------------|

Pre-chorus PM (x2)
E|--------------------------------------|
B|--------------------------------------|
G|-5-5-5-5-5-5-5-5---5-5-5-5---5-5-5-5--|
D|-2-2-2-2-2-2-2-2---3-3-3-3---5-5-5-5--|
A|--------------------------------------|
D|--------------------------------------|

Chorus (x2)
E|----------------------------------------------------------------------|
B|----------------------------------------------------------------------|
G|----------------------------------------------------------------------|
D|-7-7---10-10---0---3-3---10-10---5---7-7---10-10---0---3-3-3-3---5-5--|
A|-7-7---10-10---0---3-3---10-10---5---7-7---10-10---0---3-3-3-3---5-5--|
D|-7-7---10-10---0---3-3---10-10---5---7-7---10-10---0---3-3-3-3---5-5--|

Bridge (x2)
E|-------------------------------------|-------------------------------------|(x2)
B|-------------------------------------|-------------------------------------|
G|-------------------------------------|-------------------------------------|
D|-0-0-0-0--2-2-2-2--3-3-3-3--5-5-5-5--|-7-7-7-7--0-0-0-0--3-3-3-3--5-5-5-5--|
A|-0-0-0-0--2-2-2-2--3-3-3-3--5-5-5-5--|-7-7-7-7--0-0-0-0--3-3-3-3--5-5-5-5--|
D|-0-0-0-0--2-2-2-2--3-3-3-3--5-5-5-5--|-7-7-7-7--0-0-0-0--3-3-3-3--5-5-5-5--|

Then this, while the chorus is playing (x2)
E|----------------------------------------|----------------------------------------|
B|----------------------------------------|----------------------------------------|
G|-9--9---12-12---11---5--5---12--12---7--|-9--9---12-12--11---5--5--5---x-x---7-7-|
D|-x--x----x--x----x---x--x----x---x---x--|-x--x----x--x---x---x--x--x---x-x---x-x-|
A|-7--7---10-10----9---3--3---10--10---5--|-7--7---10-10---9---3--3--3---x-x---5-5-|
D|----------------------------------------|----------------------------------------|

Ending
E|---------------------|
B|---------------------|
G|-/9--7--5--/12--9----|
D|---------------------|
A|---------------------|
D|---------------------|

118888  Link to this entry 
Written about Sunday 2008-10-26
Written: (3948 days ago)

|------0-------0------0--------0------0-------0--------0--------0--------------0-|x1
B|--------0--------------0---------------0-------0--------0--------0-------0------|
G|---12------12-----12-------12-----12-------12------12-------12--------12---12---|
D|-14------13-----12-------11-----14-------13------12-------11-------10-----------|
A|--------------------------------------------------------------------------------|
D|--------------------------------------------------------------------------------|

Chorus Gtr I, Gtr II
E|--------------------------------------------------------|
B|--------------------------------------------------------|
G|---------4-5-4-2----------------------4-5-4-2----2------|
D|-2--2----x-x-x-x----5----0----2--2----x-x-x-x----2----0-|
A|-2--2----2-3-2-0----5----0----2--2----2-3-2-0----0----0-|
D|-2--2---------------5----0----2--2--------------------0-|

E|--------------------------------------------------------------|x1
B|--------------------------------------------------------------|
G|---------4-5-4-2------------------------------------11-12-11--|
D|-2--2----x-x-x-x----5----0----12-12-12-12----0--0----x--x--x--|
A|-2--2----2-3-2-0----5----0----10-10-10-10----0--0----9-10--9--|
D|-2--2---------------5----0----10-10-10-10----0--0-------------|

Repeat Verse and Chorus

Bridge Gtr I, Gtr II
E|-----------------------------------------------|x2
B|-----------------------------------------------|
G|11-12-11-12-11-12-11-12-11--5-5-5-5--7-7-7-7---|
D|-9--9--9--9--9--9--9--9--9--5-5-5-5--7-7-7-7---|
A|----------------------------3-3-3-3--5-5-5-5---|
D|-----------------------------------------------|

Outro
E|-------------------------------|x1
B|-------------------------------|
G|11--12--11--12--11--12--11--12-|
D|-9---9---9---9---9---9---9---9-|
A|-------------------------------|
D|-------------------------------|

118887  Link to this entry 
Written about Sunday 2008-10-26
Written: (3948 days ago)

}----------------------------------------------------------------------|
}----------------------------------------------------------------------|
}----------------------------------------------------------------------|
}—2222-----------5555--------------------------------------------------|
}---0000-33333--3333---5555--------------------------------------------|
}----------11111-----------3333----------------------------------------|

Chorus

}-------------------------------------------------------------------------|
}-------------------------------------------------------------------------|
}-------------------------------------------------------------------------|
}---22-------5555---------------------------------------------------------|
}---00--33--3333--5555----3333--5555--------------------------------------|
}--------11---------3333----1111--3333------------------------------------|


}----------------------------------------------------------------------|
}----------------------------------------------------------------------|
}----------------------------------------------------------------------|
}—2222----------5555---------------------------------------------------|
}--0000-33333--3333---5555---------------------------------------------|
}---------11111----------3333------------------------------------------|

118886  Link to this entry 
Written about Sunday 2008-10-26
Written: (3948 days ago)

-----------|---------------------------------|--------------------------------
-----------|---------------------------------|--------------------------------
-----------|---------------------------------|--------------------------------
-----------|---------------------------------|--------------------------------
-----------|---------------------------------|--------------------------------
-0-0-0-0-0-|-0-0-0-0-0-0-0-0-0-0-0-0-0-0-0-0-|-0-0-0-0-0-0-0-0-0-0-0-0-0-0-0-0



                  Riff B

---------------------------------|-------------------------------|------------
---------------------------------|-------------------------------|------------
---------------------------------|-----------------------------7-|------------
---------------------------------|---5---5-7-5-7-5-8-5-7-5-8h9---|------------
---------------------------------|-7---7-------------------------|------------
-0-0-0-0-0-0-0-0-0-0-0-0-0-0-0-0-|-------------------------------|------------

                  -----Palm Mute----------------





Repeat Riff B two more times, then on the fourth, play Riff B.2



Riff B.2

----------------------------------------------------------------------------
----------------------------------------------------------------------------
----------------------------------------------------------------------------
---5---5-7-5-7-5-8-7-5------------------------------------------------------
-7---7-----------------7--(7)\----------------------------------------------
----------------------------------------------------------------------------

------P.M-------





Riff C

--------------------------------|
--------------------------------|
--------------------------------|
---------2---2---------------0--|
---------0---0---1---0---1h2----|
-0-3-0-3---3---3---3---3--------|

|------------P.M--------|



Repeat Riff C two more times, then play Riff C.2 on the fourth time



Riff C.2


------------------------------------
------------------------------------
------------------------------------
---------2---2----------------------
---------0---0---1-0----------------
-0-3-0-3---3---3-----3-0------------

|-------P.M-----|




Now play Riff C three more times and finish with Riff C.2 on the fourth time





Riff D

-----------------------------
-----------------------------
-----------------------------
--------------------------0--
--------------------0h1h2----
-0-0--0--0--0--0--0----------

|----P.M-----------|



Play Riff D two more times and finish with Riff D.2



Riff D.2

------------------------------
------------------------------
------------------------------
--------------------0-------0-
--------------0h1h2---0h1h2---
-0-0--0--0--0-----------------

|-----P.M.---|








Riff E


----------------------------|------------------------------------------------
----------------------------|------------------------------------------------
----------------------------|------------------------------------------------
--------------------------0-|------------------------------------------------
--------------------0h1h2---|--------------0h1p0-----0h1p0-------------------
-0-0--0--0--0--0--0---------|-0-0--0--0--0-------3-3-------3-1---------------

|----P.M-----------|     |----P.M----|



Now repeat Riff E once more and go into Main Verses





Riff F (Main Verses)


--------------------------|---------------------------------------------------
--------------------------|---------------------------------------------------
--------------------------|---------------------------------------------------
--------------------------|--------------------------0------------------------
--------------------------|--------------------0h1h2--------------------------
-0-0--0--0--0--0--0-0-0-0-|-0-0--0--0--0--0--0--------------------------------

|---------------P.M---------------------------|



--------------------------|---------------------------------------------------
--------------------------|---------------------------------------------------
--------------------------|---------------------------------------------------
--------------------------|---------------------------------------------------
--------------------------|--------------0h1p0-----0h1p0----------------------
-0-0--0--0--0--0--0-0-0-0-|-0-0--0--0--0-------3-3-------3-1------------------

|----------------P.M.-------------------|



Now Repeat Riff F once more and continue into Riff G



Riff G

-----------------------------|------------------------------------------------
-----------------------------|------------------------------------------------
-----------------------------|------------------------------------------------
-5-5-5-5-5-5-5-5-5-5-5--6--6-|-5-5-5-5-5-5-5-5-5-5-5--8--7--6-----------------
-5-5-5-5-5-5-5-5-5-5-5--6--6-|-5-5-5-5-5-5-5-5-5-5-5--8--7--6-----------------
-3-3-3-3-3-3-3-3-3-5-3--4--4-|-3-3-3-3-3-3-3-3-3-3-3--6--5--4-----------------

118411  Link to this entry 
Written about Wednesday 2008-10-01
Written: (3972 days ago)

I don't want another heartbreak
I don't need another turn to cry
I don't want to learn the hard way
Baby Hello, oh no, goodbye
But you got me like a rocket
Shooting straight across the sky...
It's the way you love me
It's a feeling like this--
It's centrifugal motion
It's perpetual bliss.
It's that pivotal moment
It's Impossible
This Kiss, This Kiss
(Unstoppable)
This Kiss, This Kiss
Cinderella said to Snow White
How does love get so off course?
All I wanted was a white knight
With a good heart, soft touch, fast horse.
Ride me off into the sunset
Baby, I'm forever yours
It's the way you love me
It's a feeling like this--
It's centrifugal motion
It's perpetual bliss.
It's that pivotal moment
It's Unthinkable
This Kiss, This Kiss
(Unsinkable)
This Kiss This Kiss
You can kiss me in the moonlight
On the rooftop under the sky
You can kiss me with the windows open
While the rain comes pouring inside
Kiss me in sweet slow motion
Let's let every thing slide
You got me floating, You got me flying
It's the way you love me
It's a feeling like this--
It's centrifugal motion
It's perpetual bliss.
It's that pivotal moment
It's Subliminal
This Kiss, This Kiss
(It's Criminal)
This Kiss, This Kiss

118287  Link to this entry 
Written about Tuesday 2008-09-23
Written: (3980 days ago)

Daniel Calton
                    1127 34th Street Bellingham, WA 98229
(360)-224-2409

OBJECTIVE:
     To obtain an entry-level position in the auto mechanic industry.
EDUCATION:
                                 Bellingham High School 2020 Cornwall Avenue, Bellingham, WA 98225 (360)-676-6575 expected graduation date: June 2010.
HONORS:
Student of the month- Fall 2007.
PERSONAL:
              Work well with others, reliable, excellent driving record, responsible, dependable.
MECHANICAL EXPERIENCE:
                    Engine repair and mounted, tire changing, Modifying cars, Installing car sound systems.
VOLUNTEER:
             Helping friends and family with their cars, putting on different tires.

117108  Link to this entry 
Written about Sunday 2008-07-27
Written: (4039 days ago)

thinking about life and what it's worth
and i don't know
tell then i met this girl and now she is my world
she makes me happy so much and loving it

115646  Link to this entry 
Written about Friday 2008-06-13
Written: (4082 days ago)

We are who we are
So why do you judge us?
What did we do to be looked at?
To be laughed at?
To be made fun of or abused by people we have known for years
We all have different styles but why does every one make fun of Goths or think EMO is just plan dumb, I’m sick of it
Some people ask us “ what is the point of looking like the way we do? Why do you think pain is beautiful?”
The way we dress is just to be who we are I know it just seems that were just trying to get some attention were not.
We do what we feel is right we feel so open but yet you shut us down. Now Pain is what we have what we control and it’s the love of life, pain it’s not enough we love the pain but we hate the pain you give us. Hurting what we love and who we are
We try so hard to be normal but were not were different we have to get looked at or judged, unless we fit in with this so called high school life This life is hell why? Why do you have to keep looking at us so what were different you know what your different to us. in our eyes we are normal
My name is Sergio Quiroga and I am proud to be a Gothic EMO



 The logged in version 

News about Elfpack
Help - How does Elfpack work?

Get $10 worth of Bitcoin/Ethereum for free (you have to buy cryptos for $100 to get it) and support Elfpack!